ISO-10303-21;
HEADER;
FILE_DESCRIPTION (( 'STEP AP203' ),
    '1' );
FILE_NAME ('Q-DWWP-R21-20-1064-SH-M.STEP',
    '2020-12-22T08:53:22',
    ( '' ),
    ( '' ),
    'SwSTEP 2.0',
    'SolidWorks 2020',
    '' );
FILE_SCHEMA (( 'CONFIG_CONTROL_DESIGN' ));
ENDSEC;

DATA;
#1 = EDGE_CURVE ( 'NONE', #334, #89, #169, .T. ) ;
#2 = LOCAL_TIME ( 16, 53, 22.00000000000000000, #236 ) ;
#3 = FACE_OUTER_BOUND ( 'NONE', #94, .T. ) ;
#4 = VERTEX_POINT ( 'NONE', #324 ) ;
#5 = DATE_TIME_ROLE ( 'classification_date' ) ;
#6 = DIRECTION ( 'NONE',  ( -1.000000000000000000, -0.000000000000000000, -0.000000000000000000 ) ) ;
#7 = SHAPE_DEFINITION_REPRESENTATION ( #270, #71 ) ;
#8 = ORIENTED_EDGE ( 'NONE', *, *, #155, .T. ) ;
#9 = COORDINATED_UNIVERSAL_TIME_OFFSET ( 8, 0, .AHEAD. ) ;
#10 = CARTESIAN_POINT ( 'NONE',  ( -0.5000000000000002220, 0.000000000000000000, 0.000000000000000000 ) ) ;
#11 = EDGE_CURVE ( 'NONE', #287, #226, #222, .T. ) ;
#12 = CALENDAR_DATE ( 2020, 22, 12 ) ;
#13 = ORIENTED_EDGE ( 'NONE', *, *, #34, .F. ) ;
#14 = CC_DESIGN_PERSON_AND_ORGANIZATION_ASSIGNMENT ( #140, #264, ( #254 ) ) ;
#15 = ORIENTED_EDGE ( 'NONE', *, *, #231, .T. ) ;
#16 = APPROVAL_PERSON_ORGANIZATION ( #19, #220, #37 ) ;
#17 = DIRECTION ( 'NONE',  ( -1.000000000000000000, -0.000000000000000000, -0.000000000000000000 ) ) ;
#18 = CARTESIAN_POINT ( 'NONE',  ( 1.500000000000000000, 0.000000000000000000, 0.000000000000000000 ) ) ;
#19 = PERSON_AND_ORGANIZATION ( #198, #80 ) ;
#20 = ADVANCED_FACE ( 'NONE', ( #318 ), #136, .F. ) ;
#21 = CC_DESIGN_APPROVAL ( #177, ( #109 ) ) ;
#22 = AXIS2_PLACEMENT_3D ( 'NONE', #52, #256, #227 ) ;
#23 = DIRECTION ( 'NONE',  ( -1.000000000000000000, -0.000000000000000000, -0.000000000000000000 ) ) ;
#24 = ORIENTED_EDGE ( 'NONE', *, *, #150, .F. ) ;
#25 = EDGE_CURVE ( 'NONE', #162, #138, #167, .T. ) ;
#26 = CARTESIAN_POINT ( 'NONE',  ( -1.614212418857619014, 0.000000000000000000, 0.000000000000000000 ) ) ;
#27 = ORIENTED_EDGE ( 'NONE', *, *, #69, .F. ) ;
#28 = DIRECTION ( 'NONE',  ( 0.000000000000000000, 0.000000000000000000, 1.000000000000000000 ) ) ;
#29 = EDGE_LOOP ( 'NONE', ( #168, #277 ) ) ;
#30 = DIRECTION ( 'NONE',  ( 0.000000000000000000, 0.000000000000000000, 1.000000000000000000 ) ) ;
#31 = CARTESIAN_POINT ( 'NONE',  ( 0.5000000000000004441, 0.000000000000000000, 0.000000000000000000 ) ) ;
#32 = AXIS2_PLACEMENT_3D ( 'NONE', #96, #302, #179 ) ;
#33 = ORIENTED_EDGE ( 'NONE', *, *, #207, .T. ) ;
#34 = EDGE_CURVE ( 'NONE', #317, #162, #97, .T. ) ;
#35 = VERTEX_POINT ( 'NONE', #272 ) ;
#36 = ORIENTED_EDGE ( 'NONE', *, *, #328, .F. ) ;
#37 = APPROVAL_ROLE ( '' ) ;
#38 = EDGE_LOOP ( 'NONE', ( #132, #191 ) ) ;
#39 = ADVANCED_FACE ( 'NONE', ( #141 ), #321, .F. ) ;
#40 = DIRECTION ( 'NONE',  ( -1.000000000000000000, -0.000000000000000000, -0.000000000000000000 ) ) ;
#41 = ORIENTED_EDGE ( 'NONE', *, *, #155, .F. ) ;
#42 = DIRECTION ( 'NONE',  ( -1.000000000000000000, -0.000000000000000000, -0.000000000000000000 ) ) ;
#43 = DIRECTION ( 'NONE',  ( 0.000000000000000000, 0.000000000000000000, 1.000000000000000000 ) ) ;
#44 = PERSON_AND_ORGANIZATION_ROLE ( 'design_owner' ) ;
#45 = DIRECTION ( 'NONE',  ( 0.000000000000000000, 0.000000000000000000, 1.000000000000000000 ) ) ;
#46 = AXIS2_PLACEMENT_3D ( 'NONE', #245, #214, #210 ) ;
#47 = CARTESIAN_POINT ( 'NONE',  ( -1.500000000000000000, 0.000000000000000000, 5.000000000000000000 ) ) ;
#48 = CARTESIAN_POINT ( 'NONE',  ( 1.500000000000000444, 3.673940397442059868E-16, -3.000000000000000000 ) ) ;
#49 = DIRECTION ( 'NONE',  ( 0.000000000000000000, 0.000000000000000000, -1.000000000000000000 ) ) ;
#50 = DIRECTION ( 'NONE',  ( -1.000000000000000000, -0.000000000000000000, -0.000000000000000000 ) ) ;
#51 = AXIS2_PLACEMENT_3D ( 'NONE', #10, #114, #265 ) ;
#52 = CARTESIAN_POINT ( 'NONE',  ( -1.614212418857619014, 0.000000000000000000, 0.000000000000000000 ) ) ;
#53 = LINE ( 'NONE', #127, #284 ) ;
#54 = ORIENTED_EDGE ( 'NONE', *, *, #25, .F. ) ;
#55 = COORDINATED_UNIVERSAL_TIME_OFFSET ( 8, 0, .AHEAD. ) ;
#56 = CALENDAR_DATE ( 2020, 22, 12 ) ;
#57 = CARTESIAN_POINT ( 'NONE',  ( -1.500000000000000000, 0.000000000000000000, 0.000000000000000000 ) ) ;
#58 = AXIS2_PLACEMENT_3D ( 'NONE', #172, #216, #325 ) ;
#59 = ORIENTED_EDGE ( 'NONE', *, *, #231, .F. ) ;
#60 = DIRECTION ( 'NONE',  ( -1.000000000000000000, -0.000000000000000000, -0.000000000000000000 ) ) ;
#61 = APPROVAL_ROLE ( '' ) ;
#62 = ORIENTED_EDGE ( 'NONE', *, *, #25, .T. ) ;
#63 = EDGE_CURVE ( 'NONE', #226, #287, #186, .T. ) ;
#64 = DIRECTION ( 'NONE',  ( -1.000000000000000000, -0.000000000000000000, -0.000000000000000000 ) ) ;
#65 = ORIENTED_EDGE ( 'NONE', *, *, #247, .F. ) ;
#66 = DIRECTION ( 'NONE',  ( -1.000000000000000000, -0.000000000000000000, -0.000000000000000000 ) ) ;
#67 = DATE_AND_TIME ( #193, #278 ) ;
#68 = DIRECTION ( 'NONE',  ( 0.000000000000000000, 0.000000000000000000, 1.000000000000000000 ) ) ;
#69 = EDGE_CURVE ( 'NONE', #89, #334, #285, .T. ) ;
#70 = DIRECTION ( 'NONE',  ( -1.000000000000000000, 0.000000000000000000, -0.000000000000000000 ) ) ;
#71 = ADVANCED_BREP_SHAPE_REPRESENTATION ( 'Q-DWWP-R21-20-1064-SH-M', ( #234, #322 ), #92 ) ;
#72 = APPROVAL ( #148, 'UNSPECIFIED' ) ;
#73 = FACE_OUTER_BOUND ( 'NONE', #128, .T. ) ;
#74 = CARTESIAN_POINT ( 'NONE',  ( -1.614212418857619014, 3.673940397442059868E-16, -3.000000000000000000 ) ) ;
#75 = ORIENTED_EDGE ( 'NONE', *, *, #184, .F. ) ;
#76 = DIRECTION ( 'NONE',  ( -1.000000000000000000, -0.000000000000000000, -0.000000000000000000 ) ) ;
#77 = CLOSED_SHELL ( 'NONE', ( #115, #260, #296, #166, #20, #39, #300, #235, #173, #251 ) ) ;
#78 = EDGE_CURVE ( 'NONE', #138, #239, #147, .T. ) ;
#79 = PERSON_AND_ORGANIZATION ( #198, #80 ) ;
#80 = ORGANIZATION ( 'UNSPECIFIED', 'UNSPECIFIED', '' ) ;
#81 = APPROVAL_ROLE ( '' ) ;
#82 = VERTEX_POINT ( 'NONE', #47 ) ;
#83 = APPROVAL_DATE_TIME ( #137, #177 ) ;
#84 = CARTESIAN_POINT ( 'NONE',  ( -1.614212418857619014, 0.000000000000000000, 0.000000000000000000 ) ) ;
#85 = DIRECTION ( 'NONE',  ( -1.000000000000000000, -0.000000000000000000, -0.000000000000000000 ) ) ;
#86 = VECTOR ( 'NONE', #40, 1000.000000000000000 ) ;
#87 = DATE_AND_TIME ( #12, #2 ) ;
#88 = DIRECTION ( 'NONE',  ( 0.000000000000000000, 0.000000000000000000, 1.000000000000000000 ) ) ;
#89 = VERTEX_POINT ( 'NONE', #276 ) ;
#90 = VECTOR ( 'NONE', #152, 1000.000000000000000 ) ;
#91 = CARTESIAN_POINT ( 'NONE',  ( -1.614212418857619014, 0.000000000000000000, 3.000000000000000000 ) ) ;
#92 =( GEOMETRIC_REPRESENTATION_CONTEXT ( 3 ) GLOBAL_UNCERTAINTY_ASSIGNED_CONTEXT ( ( #181 ) ) GLOBAL_UNIT_ASSIGNED_CONTEXT ( ( #101, #107, #333 ) ) REPRESENTATION_CONTEXT ( 'NONE', 'WORKASPACE' ) );
#93 = DIRECTION ( 'NONE',  ( -1.000000000000000000, -0.000000000000000000, -0.000000000000000000 ) ) ;
#94 = EDGE_LOOP ( 'NONE', ( #13, #281, #129, #54 ) ) ;
#95 = EDGE_CURVE ( 'NONE', #317, #239, #306, .T. ) ;
#96 = CARTESIAN_POINT ( 'NONE',  ( 0.5000000000000002220, 3.000000000000000000, 0.000000000000000000 ) ) ;
#97 = CIRCLE ( 'NONE', #288, 3.000000000000000000 ) ;
#98 = CARTESIAN_POINT ( 'NONE',  ( -1.500000000000000000, 0.000000000000000000, 0.000000000000000000 ) ) ;
#99 = ORIENTED_EDGE ( 'NONE', *, *, #78, .F. ) ;
#100 = CC_DESIGN_APPROVAL ( #220, ( #307 ) ) ;
#101 =( LENGTH_UNIT ( ) NAMED_UNIT ( * ) SI_UNIT ( .MILLI., .METRE. ) );
#102 = CIRCLE ( 'NONE', #134, 5.000000000000000000 ) ;
#103 = DIRECTION ( 'NONE',  ( 0.000000000000000000, 0.000000000000000000, -1.000000000000000000 ) ) ;
#104 = ORIENTED_EDGE ( 'NONE', *, *, #247, .T. ) ;
#105 = APPLICATION_PROTOCOL_DEFINITION ( 'international standard', 'config_control_design', 1994, #144 ) ;
#106 = DIRECTION ( 'NONE',  ( -1.000000000000000000, -0.000000000000000000, -0.000000000000000000 ) ) ;
#107 =( NAMED_UNIT ( * ) PLANE_ANGLE_UNIT ( ) SI_UNIT ( $, .RADIAN. ) );
#108 = PERSON_AND_ORGANIZATION_ROLE ( 'design_supplier' ) ;
#109 = SECURITY_CLASSIFICATION ( '', '', #190 ) ;
#110 = AXIS2_PLACEMENT_3D ( 'NONE', #57, #241, #267 ) ;
#111 = VERTEX_POINT ( 'NONE', #153 ) ;
#112 = ORIENTED_EDGE ( 'NONE', *, *, #150, .T. ) ;
#113 = COORDINATED_UNIVERSAL_TIME_OFFSET ( 8, 0, .AHEAD. ) ;
#114 = DIRECTION ( 'NONE',  ( 1.000000000000000000, 0.000000000000000000, 0.000000000000000000 ) ) ;
#115 = ADVANCED_FACE ( 'NONE', ( #73 ), #246, .T. ) ;
#116 = PERSON_AND_ORGANIZATION ( #198, #80 ) ;
#117 = CC_DESIGN_SECURITY_CLASSIFICATION ( #109, ( #307 ) ) ;
#118 = EDGE_LOOP ( 'NONE', ( #27, #145 ) ) ;
#119 = DIRECTION ( 'NONE',  ( 0.000000000000000000, 0.000000000000000000, 1.000000000000000000 ) ) ;
#120 = VECTOR ( 'NONE', #93, 1000.000000000000000 ) ;
#121 = CARTESIAN_POINT ( 'NONE',  ( -1.614212418857619014, 6.123233995736766282E-16, -5.000000000000000000 ) ) ;
#122 = COORDINATED_UNIVERSAL_TIME_OFFSET ( 8, 0, .AHEAD. ) ;
#123 = CARTESIAN_POINT ( 'NONE',  ( -1.614212418857619014, 3.673940397442059868E-16, -3.000000000000000000 ) ) ;
#124 = DIRECTION ( 'NONE',  ( 0.000000000000000000, 0.000000000000000000, 1.000000000000000000 ) ) ;
#125 = CIRCLE ( 'NONE', #215, 3.000000000000000000 ) ;
#126 = LINE ( 'NONE', #121, #90 ) ;
#127 = CARTESIAN_POINT ( 'NONE',  ( -1.614212418857619014, 0.000000000000000000, 5.000000000000000000 ) ) ;
#128 = EDGE_LOOP ( 'NONE', ( #8, #143, #209, #139 ) ) ;
#129 = ORIENTED_EDGE ( 'NONE', *, *, #328, .T. ) ;
#130 = DIRECTION ( 'NONE',  ( 1.000000000000000000, 0.000000000000000000, 0.000000000000000000 ) ) ;
#131 = EDGE_CURVE ( 'NONE', #111, #35, #126, .T. ) ;
#132 = ORIENTED_EDGE ( 'NONE', *, *, #63, .F. ) ;
#133 = PLANE ( 'NONE',  #273 ) ;
#134 = AXIS2_PLACEMENT_3D ( 'NONE', #98, #202, #124 ) ;
#135 = PERSON_AND_ORGANIZATION_ROLE ( 'creator' ) ;
#136 = CYLINDRICAL_SURFACE ( 'NONE', #175, 3.000000000000000000 ) ;
#137 = DATE_AND_TIME ( #56, #178 ) ;
#138 = VERTEX_POINT ( 'NONE', #149 ) ;
#139 = ORIENTED_EDGE ( 'NONE', *, *, #275, .F. ) ;
#140 = PERSON_AND_ORGANIZATION ( #198, #80 ) ;
#141 = FACE_OUTER_BOUND ( 'NONE', #255, .T. ) ;
#142 = CIRCLE ( 'NONE', #293, 5.000000000000000000 ) ;
#143 = ORIENTED_EDGE ( 'NONE', *, *, #131, .T. ) ;
#144 = APPLICATION_CONTEXT ( 'configuration controlled 3d designs of mechanical parts and assemblies' ) ;
#145 = ORIENTED_EDGE ( 'NONE', *, *, #1, .F. ) ;
#146 = CYLINDRICAL_SURFACE ( 'NONE', #58, 5.000000000000000000 ) ;
#147 = CIRCLE ( 'NONE', #242, 3.000000000000000000 ) ;
#148 = APPROVAL_STATUS ( 'not_yet_approved' ) ;
#149 = CARTESIAN_POINT ( 'NONE',  ( 0.5000000000000004441, 0.000000000000000000, 3.000000000000000000 ) ) ;
#150 = EDGE_CURVE ( 'NONE', #35, #82, #102, .T. ) ;
#151 = LOCAL_TIME ( 16, 53, 22.00000000000000000, #122 ) ;
#152 = DIRECTION ( 'NONE',  ( -1.000000000000000000, -0.000000000000000000, -0.000000000000000000 ) ) ;
#153 = CARTESIAN_POINT ( 'NONE',  ( 1.500000000000000000, 6.123233995736766282E-16, -5.000000000000000000 ) ) ;
#154 = CARTESIAN_POINT ( 'NONE',  ( -0.5000000000000002220, 3.000000000000000000, 0.000000000000000000 ) ) ;
#155 = EDGE_CURVE ( 'NONE', #4, #111, #142, .T. ) ;
#156 = CYLINDRICAL_SURFACE ( 'NONE', #22, 3.000000000000000000 ) ;
#157 = EDGE_LOOP ( 'NONE', ( #228, #15, #165, #24 ) ) ;
#158 = PRODUCT_RELATED_PRODUCT_CATEGORY ( 'detail', '', ( #323 ) ) ;
#159 = AXIS2_PLACEMENT_3D ( 'NONE', #253, #66, #43 ) ;
#160 = MECHANICAL_CONTEXT ( 'NONE', #144, 'mechanical' ) ;
#161 = FACE_BOUND ( 'NONE', #38, .T. ) ;
#162 = VERTEX_POINT ( 'NONE', #303 ) ;
#163 = APPROVAL_DATE_TIME ( #67, #220 ) ;
#164 = CIRCLE ( 'NONE', #332, 5.000000000000000000 ) ;
#165 = ORIENTED_EDGE ( 'NONE', *, *, #275, .T. ) ;
#166 = ADVANCED_FACE ( 'NONE', ( #248 ), #217, .F. ) ;
#167 = LINE ( 'NONE', #269, #86 ) ;
#168 = ORIENTED_EDGE ( 'NONE', *, *, #184, .T. ) ;
#169 = CIRCLE ( 'NONE', #46, 3.000000000000000000 ) ;
#170 = DIRECTION ( 'NONE',  ( -1.000000000000000000, -0.000000000000000000, -0.000000000000000000 ) ) ;
#171 = LINE ( 'NONE', #74, #311 ) ;
#172 = CARTESIAN_POINT ( 'NONE',  ( -1.614212418857619014, 0.000000000000000000, 0.000000000000000000 ) ) ;
#173 = ADVANCED_FACE ( 'NONE', ( #309, #200 ), #221, .F. ) ;
#174 = DIRECTION ( 'NONE',  ( 0.000000000000000000, 0.000000000000000000, 1.000000000000000000 ) ) ;
#175 = AXIS2_PLACEMENT_3D ( 'NONE', #84, #60, #237 ) ;
#176 = ORIENTED_EDGE ( 'NONE', *, *, #11, .T. ) ;
#177 = APPROVAL ( #316, 'UNSPECIFIED' ) ;
#178 = LOCAL_TIME ( 16, 53, 22.00000000000000000, #9 ) ;
#179 = DIRECTION ( 'NONE',  ( -0.000000000000000000, 0.000000000000000000, 1.000000000000000000 ) ) ;
#180 = CC_DESIGN_PERSON_AND_ORGANIZATION_ASSIGNMENT ( #291, #135, ( #307 ) ) ;
#181 = UNCERTAINTY_MEASURE_WITH_UNIT (LENGTH_MEASURE( 1.000000000000000082E-05 ), #101, 'distance_accuracy_value', 'NONE');
#182 = AXIS2_PLACEMENT_3D ( 'NONE', #331, #262, #30 ) ;
#183 = AXIS2_PLACEMENT_3D ( 'NONE', #26, #106, #225 ) ;
#184 = EDGE_CURVE ( 'NONE', #162, #317, #125, .T. ) ;
#185 = DIRECTION ( 'NONE',  ( 1.000000000000000000, 0.000000000000000000, 0.000000000000000000 ) ) ;
#186 = CIRCLE ( 'NONE', #110, 3.000000000000000000 ) ;
#187 = EDGE_LOOP ( 'NONE', ( #203, #75, #62, #238 ) ) ;
#188 = APPROVAL_PERSON_ORGANIZATION ( #79, #177, #81 ) ;
#189 = CARTESIAN_POINT ( 'NONE',  ( -1.500000000000000000, 0.000000000000000000, 0.000000000000000000 ) ) ;
#190 = SECURITY_CLASSIFICATION_LEVEL ( 'unclassified' ) ;
#191 = ORIENTED_EDGE ( 'NONE', *, *, #11, .F. ) ;
#192 = DIRECTION ( 'NONE',  ( 0.000000000000000000, 0.000000000000000000, 1.000000000000000000 ) ) ;
#193 = CALENDAR_DATE ( 2020, 22, 12 ) ;
#194 = VECTOR ( 'NONE', #304, 1000.000000000000000 ) ;
#195 = CARTESIAN_POINT ( 'NONE',  ( 1.500000000000000444, 0.000000000000000000, 0.000000000000000000 ) ) ;
#196 = CARTESIAN_POINT ( 'NONE',  ( 0.5000000000000004441, 3.673940397442059868E-16, -3.000000000000000000 ) ) ;
#197 = FACE_OUTER_BOUND ( 'NONE', #157, .T. ) ;
#198 = PERSON ( 'UNSPECIFIED', 'UNSPECIFIED', 'UNSPECIFIED', ('UNSPECIFIED'), ('UNSPECIFIED'), ('UNSPECIFIED') ) ;
#199 = CARTESIAN_POINT ( 'NONE',  ( -1.614212418857619014, 0.000000000000000000, 0.000000000000000000 ) ) ;
#200 = FACE_BOUND ( 'NONE', #29, .T. ) ;
#201 = CC_DESIGN_APPROVAL ( #72, ( #254 ) ) ;
#202 = DIRECTION ( 'NONE',  ( -1.000000000000000000, -0.000000000000000000, -0.000000000000000000 ) ) ;
#203 = ORIENTED_EDGE ( 'NONE', *, *, #95, .F. ) ;
#204 = DIRECTION ( 'NONE',  ( 1.000000000000000000, 0.000000000000000000, 0.000000000000000000 ) ) ;
#205 = CIRCLE ( 'NONE', #159, 5.000000000000000000 ) ;
#206 = FACE_OUTER_BOUND ( 'NONE', #271, .T. ) ;
#207 = EDGE_CURVE ( 'NONE', #89, #226, #252, .T. ) ;
#208 = APPROVAL_STATUS ( 'not_yet_approved' ) ;
#209 = ORIENTED_EDGE ( 'NONE', *, *, #244, .F. ) ;
#210 = DIRECTION ( 'NONE',  ( 0.000000000000000000, 0.000000000000000000, -1.000000000000000000 ) ) ;
#211 = EDGE_LOOP ( 'NONE', ( #99, #36 ) ) ;
#212 = CALENDAR_DATE ( 2020, 22, 12 ) ;
#213 = DIRECTION ( 'NONE',  ( -1.000000000000000000, -0.000000000000000000, -0.000000000000000000 ) ) ;
#214 = DIRECTION ( 'NONE',  ( 1.000000000000000000, 0.000000000000000000, 0.000000000000000000 ) ) ;
#215 = AXIS2_PLACEMENT_3D ( 'NONE', #274, #42, #68 ) ;
#216 = DIRECTION ( 'NONE',  ( -1.000000000000000000, -0.000000000000000000, -0.000000000000000000 ) ) ;
#217 = PLANE ( 'NONE',  #32 ) ;
#218 = CARTESIAN_POINT ( 'NONE',  ( 1.500000000000000000, 0.000000000000000000, 0.000000000000000000 ) ) ;
#219 = CARTESIAN_POINT ( 'NONE',  ( -1.500000000000000000, 0.000000000000000000, 3.000000000000000000 ) ) ;
#220 = APPROVAL ( #208, 'UNSPECIFIED' ) ;
#221 = PLANE ( 'NONE',  #329 ) ;
#222 = CIRCLE ( 'NONE', #282, 3.000000000000000000 ) ;
#223 = ORIENTED_EDGE ( 'NONE', *, *, #63, .T. ) ;
#224 = LOCAL_TIME ( 16, 53, 22.00000000000000000, #113 ) ;
#225 = DIRECTION ( 'NONE',  ( 0.000000000000000000, 0.000000000000000000, 1.000000000000000000 ) ) ;
#226 = VERTEX_POINT ( 'NONE', #219 ) ;
#227 = DIRECTION ( 'NONE',  ( 0.000000000000000000, 0.000000000000000000, 1.000000000000000000 ) ) ;
#228 = ORIENTED_EDGE ( 'NONE', *, *, #131, .F. ) ;
#229 = CIRCLE ( 'NONE', #182, 3.000000000000000000 ) ;
#230 = CARTESIAN_POINT ( 'NONE',  ( -1.500000000000000000, 3.000000000000000000, 0.000000000000000000 ) ) ;
#231 = EDGE_CURVE ( 'NONE', #111, #4, #164, .T. ) ;
#232 = ORIENTED_EDGE ( 'NONE', *, *, #1, .T. ) ;
#233 = FACE_OUTER_BOUND ( 'NONE', #310, .T. ) ;
#234 = MANIFOLD_SOLID_BREP ( 'Ðý×', #77 ) ;
#235 = ADVANCED_FACE ( 'NONE', ( #197 ), #146, .T. ) ;
#236 = COORDINATED_UNIVERSAL_TIME_OFFSET ( 8, 0, .AHEAD. ) ;
#237 = DIRECTION ( 'NONE',  ( 0.000000000000000000, 0.000000000000000000, 1.000000000000000000 ) ) ;
#238 = ORIENTED_EDGE ( 'NONE', *, *, #78, .T. ) ;
#239 = VERTEX_POINT ( 'NONE', #196 ) ;
#240 = PERSON_AND_ORGANIZATION ( #198, #80 ) ;
#241 = DIRECTION ( 'NONE',  ( -1.000000000000000000, -0.000000000000000000, -0.000000000000000000 ) ) ;
#242 = AXIS2_PLACEMENT_3D ( 'NONE', #31, #6, #45 ) ;
#243 = PERSON_AND_ORGANIZATION ( #198, #80 ) ;
#244 = EDGE_CURVE ( 'NONE', #82, #35, #205, .T. ) ;
#245 = CARTESIAN_POINT ( 'NONE',  ( -0.5000000000000002220, 0.000000000000000000, 0.000000000000000000 ) ) ;
#246 = CYLINDRICAL_SURFACE ( 'NONE', #280, 5.000000000000000000 ) ;
#247 = EDGE_CURVE ( 'NONE', #334, #287, #171, .T. ) ;
#248 = FACE_OUTER_BOUND ( 'NONE', #211, .T. ) ;
#249 = PERSON_AND_ORGANIZATION_ROLE ( 'classification_officer' ) ;
#250 = CC_DESIGN_DATE_AND_TIME_ASSIGNMENT ( #315, #5, ( #109 ) ) ;
#251 = ADVANCED_FACE ( 'NONE', ( #283 ), #133, .F. ) ;
#252 = LINE ( 'NONE', #91, #120 ) ;
#253 = CARTESIAN_POINT ( 'NONE',  ( -1.500000000000000000, 0.000000000000000000, 0.000000000000000000 ) ) ;
#254 = PRODUCT_DEFINITION ( 'UNKNOWN', '', #307, #290 ) ;
#255 = EDGE_LOOP ( 'NONE', ( #65, #232, #33, #223 ) ) ;
#256 = DIRECTION ( 'NONE',  ( -1.000000000000000000, -0.000000000000000000, -0.000000000000000000 ) ) ;
#257 = EDGE_LOOP ( 'NONE', ( #41, #59 ) ) ;
#258 = CYLINDRICAL_SURFACE ( 'NONE', #183, 3.000000000000000000 ) ;
#259 = CARTESIAN_POINT ( 'NONE',  ( 0.000000000000000000, 0.000000000000000000, 0.000000000000000000 ) ) ;
#260 = ADVANCED_FACE ( 'NONE', ( #233 ), #156, .F. ) ;
#261 = AXIS2_PLACEMENT_3D ( 'NONE', #292, #64, #301 ) ;
#262 = DIRECTION ( 'NONE',  ( -1.000000000000000000, -0.000000000000000000, -0.000000000000000000 ) ) ;
#263 = APPROVAL_PERSON_ORGANIZATION ( #243, #72, #61 ) ;
#264 = PERSON_AND_ORGANIZATION_ROLE ( 'creator' ) ;
#265 = DIRECTION ( 'NONE',  ( 0.000000000000000000, 0.000000000000000000, -1.000000000000000000 ) ) ;
#266 = APPLICATION_PROTOCOL_DEFINITION ( 'international standard', 'config_control_design', 1994, #312 ) ;
#267 = DIRECTION ( 'NONE',  ( 0.000000000000000000, 0.000000000000000000, 1.000000000000000000 ) ) ;
#268 = APPROVAL_DATE_TIME ( #87, #72 ) ;
#269 = CARTESIAN_POINT ( 'NONE',  ( -1.614212418857619014, 0.000000000000000000, 3.000000000000000000 ) ) ;
#270 = PRODUCT_DEFINITION_SHAPE ( 'NONE', 'NONE',  #254 ) ;
#271 = EDGE_LOOP ( 'NONE', ( #297, #112 ) ) ;
#272 = CARTESIAN_POINT ( 'NONE',  ( -1.500000000000000000, 6.123233995736766282E-16, -5.000000000000000000 ) ) ;
#273 = AXIS2_PLACEMENT_3D ( 'NONE', #154, #204, #49 ) ;
#274 = CARTESIAN_POINT ( 'NONE',  ( 1.500000000000000444, 0.000000000000000000, 0.000000000000000000 ) ) ;
#275 = EDGE_CURVE ( 'NONE', #4, #82, #53, .T. ) ;
#276 = CARTESIAN_POINT ( 'NONE',  ( -0.5000000000000002220, 0.000000000000000000, 3.000000000000000000 ) ) ;
#277 = ORIENTED_EDGE ( 'NONE', *, *, #34, .T. ) ;
#278 = LOCAL_TIME ( 16, 53, 22.00000000000000000, #55 ) ;
#279 = CARTESIAN_POINT ( 'NONE',  ( -0.5000000000000002220, 3.673940397442059868E-16, -3.000000000000000000 ) ) ;
#280 = AXIS2_PLACEMENT_3D ( 'NONE', #199, #23, #174 ) ;
#281 = ORIENTED_EDGE ( 'NONE', *, *, #95, .T. ) ;
#282 = AXIS2_PLACEMENT_3D ( 'NONE', #189, #85, #88 ) ;
#283 = FACE_OUTER_BOUND ( 'NONE', #118, .T. ) ;
#284 = VECTOR ( 'NONE', #76, 1000.000000000000000 ) ;
#285 = CIRCLE ( 'NONE', #51, 3.000000000000000000 ) ;
#286 = CC_DESIGN_DATE_AND_TIME_ASSIGNMENT ( #320, #289, ( #254 ) ) ;
#287 = VERTEX_POINT ( 'NONE', #335 ) ;
#288 = AXIS2_PLACEMENT_3D ( 'NONE', #195, #213, #192 ) ;
#289 = DATE_TIME_ROLE ( 'creation_date' ) ;
#290 = DESIGN_CONTEXT ( 'detailed design', #312, 'design' ) ;
#291 = PERSON_AND_ORGANIZATION ( #198, #80 ) ;
#292 = CARTESIAN_POINT ( 'NONE',  ( -1.614212418857619014, 0.000000000000000000, 0.000000000000000000 ) ) ;
#293 = AXIS2_PLACEMENT_3D ( 'NONE', #18, #170, #330 ) ;
#294 = AXIS2_PLACEMENT_3D ( 'NONE', #230, #185, #103 ) ;
#295 = CALENDAR_DATE ( 2020, 22, 12 ) ;
#296 = ADVANCED_FACE ( 'NONE', ( #3 ), #258, .F. ) ;
#297 = ORIENTED_EDGE ( 'NONE', *, *, #244, .T. ) ;
#298 = PERSON_AND_ORGANIZATION ( #198, #80 ) ;
#299 = ORIENTED_EDGE ( 'NONE', *, *, #69, .T. ) ;
#300 = ADVANCED_FACE ( 'NONE', ( #161, #206 ), #314, .F. ) ;
#301 = DIRECTION ( 'NONE',  ( 0.000000000000000000, 0.000000000000000000, 1.000000000000000000 ) ) ;
#302 = DIRECTION ( 'NONE',  ( -1.000000000000000000, 0.000000000000000000, -0.000000000000000000 ) ) ;
#303 = CARTESIAN_POINT ( 'NONE',  ( 1.500000000000000444, 0.000000000000000000, 3.000000000000000000 ) ) ;
#304 = DIRECTION ( 'NONE',  ( -1.000000000000000000, -0.000000000000000000, -0.000000000000000000 ) ) ;
#305 = ORIENTED_EDGE ( 'NONE', *, *, #207, .F. ) ;
#306 = LINE ( 'NONE', #123, #194 ) ;
#307 = PRODUCT_DEFINITION_FORMATION_WITH_SPECIFIED_SOURCE ( 'ANY', '', #323, .NOT_KNOWN. ) ;
#308 = CC_DESIGN_PERSON_AND_ORGANIZATION_ASSIGNMENT ( #298, #249, ( #109 ) ) ;
#309 = FACE_OUTER_BOUND ( 'NONE', #257, .T. ) ;
#310 = EDGE_LOOP ( 'NONE', ( #299, #104, #176, #305 ) ) ;
#311 = VECTOR ( 'NONE', #50, 1000.000000000000000 ) ;
#312 = APPLICATION_CONTEXT ( 'configuration controlled 3d designs of mechanical parts and assemblies' ) ;
#313 = CC_DESIGN_PERSON_AND_ORGANIZATION_ASSIGNMENT ( #116, #44, ( #323 ) ) ;
#314 = PLANE ( 'NONE',  #294 ) ;
#315 = DATE_AND_TIME ( #295, #151 ) ;
#316 = APPROVAL_STATUS ( 'not_yet_approved' ) ;
#317 = VERTEX_POINT ( 'NONE', #48 ) ;
#318 = FACE_OUTER_BOUND ( 'NONE', #187, .T. ) ;
#319 = CC_DESIGN_PERSON_AND_ORGANIZATION_ASSIGNMENT ( #240, #108, ( #307 ) ) ;
#320 = DATE_AND_TIME ( #212, #224 ) ;
#321 = CYLINDRICAL_SURFACE ( 'NONE', #261, 3.000000000000000000 ) ;
#322 = AXIS2_PLACEMENT_3D ( 'NONE', #259, #28, #130 ) ;
#323 = PRODUCT ( 'Q-DWWP-R21-20-1064-SH-M', 'Q-DWWP-R21-20-1064-SH-M', '', ( #160 ) ) ;
#324 = CARTESIAN_POINT ( 'NONE',  ( 1.500000000000000000, 0.000000000000000000, 5.000000000000000000 ) ) ;
#325 = DIRECTION ( 'NONE',  ( 0.000000000000000000, 0.000000000000000000, 1.000000000000000000 ) ) ;
#326 = DIRECTION ( 'NONE',  ( -0.000000000000000000, 0.000000000000000000, 1.000000000000000000 ) ) ;
#327 = CARTESIAN_POINT ( 'NONE',  ( 1.500000000000000222, 5.000000000000000000, 0.000000000000000000 ) ) ;
#328 = EDGE_CURVE ( 'NONE', #239, #138, #229, .T. ) ;
#329 = AXIS2_PLACEMENT_3D ( 'NONE', #327, #70, #326 ) ;
#330 = DIRECTION ( 'NONE',  ( 0.000000000000000000, 0.000000000000000000, 1.000000000000000000 ) ) ;
#331 = CARTESIAN_POINT ( 'NONE',  ( 0.5000000000000004441, 0.000000000000000000, 0.000000000000000000 ) ) ;
#332 = AXIS2_PLACEMENT_3D ( 'NONE', #218, #17, #119 ) ;
#333 =( NAMED_UNIT ( * ) SI_UNIT ( $, .STERADIAN. ) SOLID_ANGLE_UNIT ( ) );
#334 = VERTEX_POINT ( 'NONE', #279 ) ;
#335 = CARTESIAN_POINT ( 'NONE',  ( -1.500000000000000000, 3.673940397442059868E-16, -3.000000000000000000 ) ) ;
ENDSEC;
END-ISO-10303-21;
